  0
SECTION
  2
HEADER
  9
$ACADVER
  1
AC1009
  9
$DWGCODEPAGE
  3
ansi_1252
  9
$INSBASE
 10
0.0
 20
0.0
 30
0.0
  9
$EXTMIN
 10
0.0
 20
0.0
 30
0.0
  9
$EXTMAX
 10
297.0
 20
210.0
 30
0.0
  9
$LIMMIN
 10
0.0
 20
0.0
  9
$LIMMAX
 10
297.0
 20
210.0
  9
$ORTHOMODE
 70
     0
  9
$REGENMODE
 70
     1
  9
$FILLMODE
 70
     1
  9
$QTEXTMODE
 70
     0
  9
$MIRRTEXT
 70
     1
  9
$DRAGMODE
 70
     2
  9
$LTSCALE
 40
1.0
  9
$OSMODE
 70
    37
  9
$ATTMODE
 70
     1
  9
$TEXTSIZE
 40
3.5
  9
$TRACEWID
 40
1.0
  9
$TEXTSTYLE
  7
STANDARD
  9
$CLAYER
  8
0
  9
$CELTYPE
  6
BYLAYER
  9
$CECOLOR
 62
   256
  9
$DIMSCALE
 40
1.0
  9
$DIMASZ
 40
6.0
  9
$DIMEXO
 40
1.0
  9
$DIMDLI
 40
3.75
  9
$DIMRND
 40
0.0
  9
$DIMDLE
 40
0.0
  9
$DIMEXE
 40
1.0
  9
$DIMTP
 40
0.0
  9
$DIMTM
 40
0.0
  9
$DIMTXT
 40
3.5
  9
$DIMCEN
 40
2.5
  9
$DIMTSZ
 40
0.0
  9
$DIMTOL
 70
     0
  9
$DIMLIM
 70
     0
  9
$DIMTIH
 70
     1
  9
$DIMTOH
 70
     1
  9
$DIMSE1
 70
     0
  9
$DIMSE2
 70
     0
  9
$DIMTAD
 70
     1
  9
$DIMZIN
 70
     0
  9
$DIMBLK
  1

  9
$DIMASO
 70
     1
  9
$DIMSHO
 70
     1
  9
$DIMPOST
  1

  9
$DIMAPOST
  1

  9
$DIMALT
 70
     0
  9
$DIMALTD
 70
     3
  9
$DIMALTF
 40
0.0393700787
  9
$DIMLFAC
 40
2.0
  9
$DIMTOFL
 70
     1
  9
$DIMTVP
 40
0.0
  9
$DIMTIX
 70
     0
  9
$DIMSOXD
 70
     0
  9
$DIMSAH
 70
     0
  9
$DIMBLK1
  1

  9
$DIMBLK2
  1

  9
$DIMSTYLE
  2
ISO-25
  9
$DIMCLRD
 70
     0
  9
$DIMCLRE
 70
     0
  9
$DIMCLRT
 70
     0
  9
$DIMTFAC
 40
1.0
  9
$DIMGAP
 40
1.524
  9
$LUNITS
 70
     2
  9
$LUPREC
 70
     2
  9
$SKETCHINC
 40
1.0
  9
$FILLETRAD
 40
10.0
  9
$AUNITS
 70
     0
  9
$AUPREC
 70
     2
  9
$MENU
  1
.
  9
$ELEVATION
 40
0.0
  9
$PELEVATION
 40
0.0
  9
$THICKNESS
 40
0.0
  9
$LIMCHECK
 70
     0
  9
$CHAMFERA
 40
0.0
  9
$CHAMFERB
 40
0.0
  9
$SKPOLY
 70
     0
  9
$TDCREATE
 40
2458203.815055833
  9
$TDUPDATE
 40
2458203.815056181
  9
$TDINDWG
 40
0.0000000116
  9
$TDUSRTIMER
 40
0.0000000116
  9
$USRTIMER
 70
     1
  9
$ANGBASE
 50
0.0
  9
$ANGDIR
 70
     0
  9
$PDMODE
 70
     0
  9
$PDSIZE
 40
-1.0
  9
$PLINEWID
 40
0.0
  9
$COORDS
 70
     1
  9
$SPLFRAME
 70
     0
  9
$SPLINETYPE
 70
     6
  9
$SPLINESEGS
 70
     8
  9
$ATTDIA
 70
     0
  9
$ATTREQ
 70
     1
  9
$HANDLING
 70
     1
  9
$HANDSEED
  5
D3
  9
$SURFTAB1
 70
     6
  9
$SURFTAB2
 70
     6
  9
$SURFTYPE
 70
     6
  9
$SURFU
 70
     6
  9
$SURFV
 70
     6
  9
$UCSNAME
  2

  9
$UCSORG
 10
0.0
 20
0.0
 30
0.0
  9
$UCSXDIR
 10
1.0
 20
0.0
 30
0.0
  9
$UCSYDIR
 10
0.0
 20
1.0
 30
0.0
  9
$PUCSNAME
  2

  9
$PUCSORG
 10
0.0
 20
0.0
 30
0.0
  9
$PUCSXDIR
 10
1.0
 20
0.0
 30
0.0
  9
$PUCSYDIR
 10
0.0
 20
1.0
 30
0.0
  9
$USERI1
 70
     0
  9
$USERI2
 70
     0
  9
$USERI3
 70
     0
  9
$USERI4
 70
     0
  9
$USERI5
 70
     0
  9
$USERR1
 40
0.0
  9
$USERR2
 40
0.0
  9
$USERR3
 40
0.0
  9
$USERR4
 40
0.0
  9
$USERR5
 40
0.0
  9
$WORLDVIEW
 70
     1
  9
$SHADEDGE
 70
     3
  9
$SHADEDIF
 70
    70
  9
$TILEMODE
 70
     1
  9
$MAXACTVP
 70
    64
  9
$PLIMCHECK
 70
     0
  9
$PEXTMIN
 10
1.0000000000E+20
 20
1.0000000000E+20
 30
1.0000000000E+20
  9
$PEXTMAX
 10
-1.0000000000E+20
 20
-1.0000000000E+20
 30
-1.0000000000E+20
  9
$PLIMMIN
 10
0.0
 20
0.0
  9
$PLIMMAX
 10
420.0
 20
297.0
  9
$UNITMODE
 70
     0
  9
$VISRETAIN
 70
     1
  9
$PLINEGEN
 70
     0
  9
$PSLTSCALE
 70
     1
  0
ENDSEC
  0
SECTION
  2
TABLES
  0
TABLE
  2
VPORT
 70
     1
  0
VPORT
  2
*ACTIVE
 70
     0
 10
0.0
 20
0.0
 11
1.0
 21
1.0
 12
148.5
 22
105.0
 13
0.0
 23
0.0
 14
10.0
 24
10.0
 15
10.0
 25
10.0
 16
0.0
 26
0.0
 36
1.0
 17
0.0
 27
0.0
 37
0.0
 40
210.0
 41
1.4142857143
 42
50.0
 43
0.0
 44
0.0
 50
0.0
 51
0.0
 71
     0
 72
  2000
 73
     1
 74
     3
 75
     0
 76
     0
 77
     0
 78
     0
  0
ENDTAB
  0
TABLE
  2
LTYPE
 70
     6
  0
LTYPE
  2
CONTINUOUS
 70
     0
  3
Solid line
 72
    65
 73
     0
 40
0.0
  0
LTYPE
  2
HIDDEN
 70
     0
  3
Hidden __ __ __ __ __ __ __ __ __ __ __ __ __ __
 72
    65
 73
     2
 40
1.905
 49
1.27
 49
-0.635
  0
LTYPE
  2
PHANTOM
 70
     0
  3
Phantom ______  __  __  ______  __  __  ______
 72
    65
 73
     6
 40
12.7
 49
6.35
 49
-1.27
 49
1.27
 49
-1.27
 49
1.27
 49
-1.27
  0
LTYPE
  2
CENTER
 70
     0
  3
Center ____ _ ____ _ ____ _ ____ _ ____ _ ____
 72
    65
 73
     4
 40
10.16
 49
6.35
 49
-1.27
 49
1.27
 49
-1.27
  0
LTYPE
  2
CENTERX2
 70
     0
  3
Center (2x) ________  __  ________  __  _____
 72
    65
 73
     4
 40
20.32
 49
12.7
 49
-2.54
 49
2.54
 49
-2.54
  0
LTYPE
  2
DOT2
 70
     0
  3
Dot (.5x) ........................................
 72
    65
 73
     2
 40
0.635
 49
0.0
 49
-0.635
  0
ENDTAB
  0
TABLE
  2
LAYER
 70
     1
  0
LAYER
  2
0
 70
     0
 62
     7
  6
CONTINUOUS
  0
ENDTAB
  0
TABLE
  2
STYLE
 70
     1
  0
STYLE
  2
STANDARD
 70
     0
 40
0.0
 41
1.0
 50
0.0
 71
     0
 42
3.5
  3
txt
  4

  0
ENDTAB
  0
TABLE
  2
VIEW
 70
     0
  0
ENDTAB
  0
TABLE
  2
UCS
 70
     0
  0
ENDTAB
  0
TABLE
  2
APPID
 70
     1
  0
APPID
  2
ACAD
 70
     0
  0
ENDTAB
  0
TABLE
  2
DIMSTYLE
 70
     1
  0
DIMSTYLE
  2
ISO-25
 70
     0
  3

  4

  5

  6

  7

 40
1.0
 41
2.5
 42
0.625
 43
3.75
 44
1.25
 45
0.0
 46
0.0
 47
0.0
 48
0.0
140
2.5
141
2.5
142
0.0
143
0.0393700787
144
1.0
145
0.0
146
1.0
147
0.625
 71
     0
 72
     0
 73
     0
 74
     0
 75
     0
 76
     0
 77
     1
 78
     8
170
     0
171
     3
172
     1
173
     0
174
     0
175
     0
176
     0
177
     0
178
     0
  0
ENDTAB
  0
ENDSEC
  0
SECTION
  2
BLOCKS
  0
BLOCK
  8
0
  2
$MODEL_SPACE
 70
     0
 10
0.0
 20
0.0
 30
0.0
  3
$MODEL_SPACE
  1

  0
ENDBLK
  5
21
  8
0
  0
BLOCK
 67
     1
  8
0
  2
$PAPER_SPACE
 70
     0
 10
0.0
 20
0.0
 30
0.0
  3
$PAPER_SPACE
  1

  0
ENDBLK
  5
1D
 67
     1
  8
0
  0
ENDSEC
  0
SECTION
  2
ENTITIES
  0
CIRCLE
  5
6F
  8
0
  6
CONTINUOUS
 62
     7
 10
192.0764581153
 20
164.4436490071
 30
0.0
 40
1.250000000000028
  0
CIRCLE
  5
70
  8
0
  6
CONTINUOUS
 62
     7
 10
232.0764581153
 20
168.9436490071
 30
0.0
 40
1.25
  0
CIRCLE
  5
71
  8
0
  6
CONTINUOUS
 62
     7
 10
237.0764581153
 20
163.9436490071
 30
0.0
 40
2.450000000000017
  0
LINE
  5
72
  8
0
  6
CONTINUOUS
 62
     7
 10
52.0764593074
 20
186.9436486719
 30
0.0
 11
47.0764566252
 21
181.9436487836
 31
0.0
  0
LINE
  5
73
  8
0
  6
CONTINUOUS
 62
     7
 10
242.0764569232
 20
186.9436486719
 30
0.0
 11
52.0764593074
 21
186.9436486719
 31
0.0
  0
LINE
  5
74
  8
0
  6
CONTINUOUS
 62
     7
 10
247.0764596054
 20
181.9436487836
 30
0.0
 11
242.0764569232
 21
186.9436486719
 31
0.0
  0
LINE
  5
75
  8
0
  6
CONTINUOUS
 62
     7
 10
247.0764596054
 20
161.9436492307
 30
0.0
 11
247.0764596054
 21
181.9436487836
 31
0.0
  0
LINE
  5
76
  8
0
  6
CONTINUOUS
 62
     7
 10
242.0764569232
 20
156.9436493424
 30
0.0
 11
247.0764596054
 21
161.9436492307
 31
0.0
  0
LINE
  5
77
  8
0
  6
CONTINUOUS
 62
     7
 10
52.0764593074
 20
156.9436493424
 30
0.0
 11
242.0764569232
 21
156.9436493424
 31
0.0
  0
LINE
  5
78
  8
0
  6
CONTINUOUS
 62
     7
 10
47.0764566252
 20
161.9436492307
 30
0.0
 11
52.0764593074
 21
156.9436493424
 31
0.0
  0
LINE
  5
79
  8
0
  6
CONTINUOUS
 62
     7
 10
47.0764566252
 20
181.9436487836
 30
0.0
 11
47.0764566252
 21
161.9436492307
 31
0.0
  0
CIRCLE
  5
7A
  8
0
  6
CONTINUOUS
 62
     7
 10
57.0764581153
 20
179.9436490071
 30
0.0
 40
2.45000000000001
  0
CIRCLE
  5
7B
  8
0
  6
CONTINUOUS
 62
     7
 10
57.0764581153
 20
163.9436490071
 30
0.0
 40
2.449999999999996
  0
CIRCLE
  5
7C
  8
0
  6
CONTINUOUS
 62
     7
 10
62.0764581153
 20
174.9436490071
 30
0.0
 40
1.25
  0
CIRCLE
  5
7D
  8
0
  6
CONTINUOUS
 62
     7
 10
62.0764581153
 20
168.9436490071
 30
0.0
 40
1.25
  0
CIRCLE
  5
7E
  8
0
  6
CONTINUOUS
 62
     7
 10
102.0764581153
 20
179.4436490071
 30
0.0
 40
1.25
  0
CIRCLE
  5
7F
  8
0
  6
CONTINUOUS
 62
     7
 10
102.0764581153
 20
164.4436490071
 30
0.0
 40
1.25
  0
CIRCLE
  5
80
  8
0
  6
CONTINUOUS
 62
     7
 10
237.0764581153
 20
179.9436490071
 30
0.0
 40
2.450000000000017
  0
CIRCLE
  5
81
  8
0
  6
CONTINUOUS
 62
     7
 10
232.0764581153
 20
174.9436490071
 30
0.0
 40
1.25
  0
CIRCLE
  5
82
  8
0
  6
CONTINUOUS
 62
     7
 10
192.0764581153
 20
179.4436490071
 30
0.0
 40
1.250000000000028
  0
CIRCLE
  5
83
  8
0
  6
CONTINUOUS
 62
     7
 10
191.9149543244
 20
127.8442209585
 30
0.0
 40
1.25
  0
CIRCLE
  5
84
  8
0
  6
CONTINUOUS
 62
     7
 10
231.9149543244
 20
132.3442209585
 30
0.0
 40
1.25
  0
CIRCLE
  5
85
  8
0
  6
CONTINUOUS
 62
     7
 10
236.9149543244
 20
127.3442209585
 30
0.0
 40
2.450000000000017
  0
LINE
  5
86
  8
0
  6
CONTINUOUS
 62
     7
 10
51.9149555165
 20
150.3442206232
 30
0.0
 11
46.9149528343
 21
145.344220735
 31
0.0
  0
LINE
  5
87
  8
0
  6
CONTINUOUS
 62
     7
 10
241.9149531323
 20
150.3442206232
 30
0.0
 11
51.9149555165
 21
150.3442206232
 31
0.0
  0
LINE
  5
88
  8
0
  6
CONTINUOUS
 62
     7
 10
246.9149558145
 20
145.344220735
 30
0.0
 11
241.9149531323
 21
150.3442206232
 31
0.0
  0
LINE
  5
89
  8
0
  6
CONTINUOUS
 62
     7
 10
246.9149558145
 20
125.344221182
 30
0.0
 11
246.9149558145
 21
145.344220735
 31
0.0
  0
LINE
  5
8A
  8
0
  6
CONTINUOUS
 62
     7
 10
241.9149531323
 20
120.3442212938
 30
0.0
 11
246.9149558145
 21
125.344221182
 31
0.0
  0
LINE
  5
8B
  8
0
  6
CONTINUOUS
 62
     7
 10
51.9149555165
 20
120.3442212938
 30
0.0
 11
241.9149531323
 21
120.3442212938
 31
0.0
  0
LINE
  5
8C
  8
0
  6
CONTINUOUS
 62
     7
 10
46.9149528343
 20
125.344221182
 30
0.0
 11
51.9149555165
 21
120.3442212938
 31
0.0
  0
LINE
  5
8D
  8
0
  6
CONTINUOUS
 62
     7
 10
46.9149528343
 20
145.344220735
 30
0.0
 11
46.9149528343
 21
125.344221182
 31
0.0
  0
CIRCLE
  5
8E
  8
0
  6
CONTINUOUS
 62
     7
 10
56.9149543244
 20
143.3442209585
 30
0.0
 40
2.45000000000001
  0
CIRCLE
  5
8F
  8
0
  6
CONTINUOUS
 62
     7
 10
56.9149543244
 20
127.3442209585
 30
0.0
 40
2.449999999999996
  0
CIRCLE
  5
90
  8
0
  6
CONTINUOUS
 62
     7
 10
61.9149543244
 20
138.3442209585
 30
0.0
 40
1.25
  0
CIRCLE
  5
91
  8
0
  6
CONTINUOUS
 62
     7
 10
61.9149543244
 20
132.3442209585
 30
0.0
 40
1.25
  0
CIRCLE
  5
92
  8
0
  6
CONTINUOUS
 62
     7
 10
101.9149543244
 20
142.8442209585
 30
0.0
 40
1.25
  0
CIRCLE
  5
93
  8
0
  6
CONTINUOUS
 62
     7
 10
101.9149543244
 20
127.8442209585
 30
0.0
 40
1.25
  0
CIRCLE
  5
94
  8
0
  6
CONTINUOUS
 62
     7
 10
236.9149543244
 20
143.3442209585
 30
0.0
 40
2.450000000000017
  0
CIRCLE
  5
95
  8
0
  6
CONTINUOUS
 62
     7
 10
231.9149543244
 20
138.3442209585
 30
0.0
 40
1.25
  0
CIRCLE
  5
96
  8
0
  6
CONTINUOUS
 62
     7
 10
191.9149543244
 20
142.8442209585
 30
0.0
 40
1.25
  0
CIRCLE
  5
97
  8
0
  6
CONTINUOUS
 62
     7
 10
192.8047317999
 20
91.3204642066
 30
0.0
 40
1.25
  0
CIRCLE
  5
98
  8
0
  6
CONTINUOUS
 62
     7
 10
232.8047317999
 20
95.8204642066
 30
0.0
 40
1.25
  0
CIRCLE
  5
99
  8
0
  6
CONTINUOUS
 62
     7
 10
237.8047317999
 20
90.8204642066
 30
0.0
 40
2.450000000000017
  0
LINE
  5
9A
  8
0
  6
CONTINUOUS
 62
     7
 10
52.804732992
 20
113.8204638713
 30
0.0
 11
47.8047303097
 21
108.820463983
 31
0.0
  0
LINE
  5
9B
  8
0
  6
CONTINUOUS
 62
     7
 10
242.8047306078
 20
113.8204638713
 30
0.0
 11
52.804732992
 21
113.8204638713
 31
0.0
  0
LINE
  5
9C
  8
0
  6
CONTINUOUS
 62
     7
 10
247.80473329
 20
108.820463983
 30
0.0
 11
242.8047306078
 21
113.8204638713
 31
0.0
  0
LINE
  5
9D
  8
0
  6
CONTINUOUS
 62
     7
 10
247.80473329
 20
88.8204644301
 30
0.0
 11
247.80473329
 21
108.820463983
 31
0.0
  0
LINE
  5
9E
  8
0
  6
CONTINUOUS
 62
     7
 10
242.8047306078
 20
83.8204645418
 30
0.0
 11
247.80473329
 21
88.8204644301
 31
0.0
  0
LINE
  5
9F
  8
0
  6
CONTINUOUS
 62
     7
 10
52.804732992
 20
83.8204645418
 30
0.0
 11
242.8047306078
 21
83.8204645418
 31
0.0
  0
LINE
  5
A0
  8
0
  6
CONTINUOUS
 62
     7
 10
47.8047303097
 20
88.8204644301
 30
0.0
 11
52.804732992
 21
83.8204645418
 31
0.0
  0
LINE
  5
A1
  8
0
  6
CONTINUOUS
 62
     7
 10
47.8047303097
 20
108.820463983
 30
0.0
 11
47.8047303097
 21
88.8204644301
 31
0.0
  0
CIRCLE
  5
A2
  8
0
  6
CONTINUOUS
 62
     7
 10
57.8047317999
 20
106.8204642066
 30
0.0
 40
2.45000000000001
  0
CIRCLE
  5
A3
  8
0
  6
CONTINUOUS
 62
     7
 10
57.8047317999
 20
90.8204642066
 30
0.0
 40
2.449999999999996
  0
CIRCLE
  5
A4
  8
0
  6
CONTINUOUS
 62
     7
 10
62.8047317999
 20
101.8204642066
 30
0.0
 40
1.250000000000007
  0
CIRCLE
  5
A5
  8
0
  6
CONTINUOUS
 62
     7
 10
62.8047317999
 20
95.8204642066
 30
0.0
 40
1.250000000000007
  0
CIRCLE
  5
A6
  8
0
  6
CONTINUOUS
 62
     7
 10
102.8047317999
 20
106.3204642066
 30
0.0
 40
1.25
  0
CIRCLE
  5
A7
  8
0
  6
CONTINUOUS
 62
     7
 10
102.8047317999
 20
91.3204642066
 30
0.0
 40
1.25
  0
CIRCLE
  5
A8
  8
0
  6
CONTINUOUS
 62
     7
 10
237.8047317999
 20
106.8204642066
 30
0.0
 40
2.450000000000017
  0
CIRCLE
  5
A9
  8
0
  6
CONTINUOUS
 62
     7
 10
232.8047317999
 20
101.8204642066
 30
0.0
 40
1.25
  0
CIRCLE
  5
AA
  8
0
  6
CONTINUOUS
 62
     7
 10
192.8047317999
 20
106.3204642066
 30
0.0
 40
1.25
  0
CIRCLE
  5
AB
  8
0
  6
CONTINUOUS
 62
     7
 10
192.5140149173
 20
55.4027290146
 30
0.0
 40
1.25
  0
CIRCLE
  5
AC
  8
0
  6
CONTINUOUS
 62
     7
 10
232.5140149173
 20
59.9027290146
 30
0.0
 40
1.25
  0
CIRCLE
  5
AD
  8
0
  6
CONTINUOUS
 62
     7
 10
237.5140149173
 20
54.9027290146
 30
0.0
 40
2.450000000000017
  0
LINE
  5
AE
  8
0
  6
CONTINUOUS
 62
     7
 10
52.5140161094
 20
77.9027286793
 30
0.0
 11
47.5140134271
 21
72.9027287911
 31
0.0
  0
LINE
  5
AF
  8
0
  6
CONTINUOUS
 62
     7
 10
242.5140137252
 20
77.9027286793
 30
0.0
 11
52.5140161094
 21
77.9027286793
 31
0.0
  0
LINE
  5
B0
  8
0
  6
CONTINUOUS
 62
     7
 10
247.5140164074
 20
72.9027287911
 30
0.0
 11
242.5140137252
 21
77.9027286793
 31
0.0
  0
LINE
  5
B1
  8
0
  6
CONTINUOUS
 62
     7
 10
247.5140164074
 20
52.9027292381
 30
0.0
 11
247.5140164074
 21
72.9027287911
 31
0.0
  0
LINE
  5
B2
  8
0
  6
CONTINUOUS
 62
     7
 10
242.5140137252
 20
47.9027293499
 30
0.0
 11
247.5140164074
 21
52.9027292381
 31
0.0
  0
LINE
  5
B3
  8
0
  6
CONTINUOUS
 62
     7
 10
52.5140161094
 20
47.9027293499
 30
0.0
 11
242.5140137252
 21
47.9027293499
 31
0.0
  0
LINE
  5
B4
  8
0
  6
CONTINUOUS
 62
     7
 10
47.5140134271
 20
52.9027292381
 30
0.0
 11
52.5140161094
 21
47.9027293499
 31
0.0
  0
LINE
  5
B5
  8
0
  6
CONTINUOUS
 62
     7
 10
47.5140134271
 20
72.9027287911
 30
0.0
 11
47.5140134271
 21
52.9027292381
 31
0.0
  0
CIRCLE
  5
B6
  8
0
  6
CONTINUOUS
 62
     7
 10
57.5140149173
 20
70.9027290146
 30
0.0
 40
2.45000000000001
  0
CIRCLE
  5
B7
  8
0
  6
CONTINUOUS
 62
     7
 10
57.5140149173
 20
54.9027290146
 30
0.0
 40
2.449999999999996
  0
CIRCLE
  5
B8
  8
0
  6
CONTINUOUS
 62
     7
 10
62.5140149173
 20
65.9027290146
 30
0.0
 40
1.25
  0
CIRCLE
  5
B9
  8
0
  6
CONTINUOUS
 62
     7
 10
62.5140149173
 20
59.9027290146
 30
0.0
 40
1.25
  0
CIRCLE
  5
BA
  8
0
  6
CONTINUOUS
 62
     7
 10
102.5140149173
 20
70.4027290146
 30
0.0
 40
1.25
  0
CIRCLE
  5
BB
  8
0
  6
CONTINUOUS
 62
     7
 10
102.5140149173
 20
55.4027290146
 30
0.0
 40
1.25
  0
CIRCLE
  5
BC
  8
0
  6
CONTINUOUS
 62
     7
 10
237.5140149173
 20
70.9027290146
 30
0.0
 40
2.450000000000017
  0
CIRCLE
  5
BD
  8
0
  6
CONTINUOUS
 62
     7
 10
232.5140149173
 20
65.9027290146
 30
0.0
 40
1.25
  0
CIRCLE
  5
BE
  8
0
  6
CONTINUOUS
 62
     7
 10
192.5140149173
 20
70.4027290146
 30
0.0
 40
1.25
  0
CIRCLE
  5
BF
  8
0
  6
CONTINUOUS
 62
     7
 10
191.9172171275
 20
19.2366556225
 30
0.0
 40
1.25
  0
CIRCLE
  5
C0
  8
0
  6
CONTINUOUS
 62
     7
 10
231.9172171275
 20
23.7366556225
 30
0.0
 40
1.25
  0
CIRCLE
  5
C1
  8
0
  6
CONTINUOUS
 62
     7
 10
236.9172171275
 20
18.7366556225
 30
0.0
 40
2.449999999999989
  0
LINE
  5
C2
  8
0
  6
CONTINUOUS
 62
     7
 10
51.9172183196
 20
41.7366552873
 30
0.0
 11
46.9172156374
 21
36.736655399
 31
0.0
  0
LINE
  5
C3
  8
0
  6
CONTINUOUS
 62
     7
 10
241.9172159354
 20
41.7366552873
 30
0.0
 11
51.9172183196
 21
41.7366552873
 31
0.0
  0
LINE
  5
C4
  8
0
  6
CONTINUOUS
 62
     7
 10
246.9172186176
 20
36.736655399
 30
0.0
 11
241.9172159354
 21
41.7366552873
 31
0.0
  0
LINE
  5
C5
  8
0
  6
CONTINUOUS
 62
     7
 10
246.9172186176
 20
16.7366558461
 30
0.0
 11
246.9172186176
 21
36.736655399
 31
0.0
  0
LINE
  5
C6
  8
0
  6
CONTINUOUS
 62
     7
 10
241.9172159354
 20
11.7366559578
 30
0.0
 11
246.9172186176
 21
16.7366558461
 31
0.0
  0
LINE
  5
C7
  8
0
  6
CONTINUOUS
 62
     7
 10
51.9172183196
 20
11.7366559578
 30
0.0
 11
241.9172159354
 21
11.7366559578
 31
0.0
  0
LINE
  5
C8
  8
0
  6
CONTINUOUS
 62
     7
 10
46.9172156374
 20
16.7366558461
 30
0.0
 11
51.9172183196
 21
11.7366559578
 31
0.0
  0
LINE
  5
C9
  8
0
  6
CONTINUOUS
 62
     7
 10
46.9172156374
 20
36.736655399
 30
0.0
 11
46.9172156374
 21
16.7366558461
 31
0.0
  0
CIRCLE
  5
CA
  8
0
  6
CONTINUOUS
 62
     7
 10
56.9172171275
 20
34.7366556225
 30
0.0
 40
2.450000000000003
  0
CIRCLE
  5
CB
  8
0
  6
CONTINUOUS
 62
     7
 10
56.9172171275
 20
18.7366556225
 30
0.0
 40
2.449999999999989
  0
CIRCLE
  5
CC
  8
0
  6
CONTINUOUS
 62
     7
 10
61.9172171275
 20
29.7366556225
 30
0.0
 40
1.25
  0
CIRCLE
  5
CD
  8
0
  6
CONTINUOUS
 62
     7
 10
61.9172171275
 20
23.7366556225
 30
0.0
 40
1.25
  0
CIRCLE
  5
CE
  8
0
  6
CONTINUOUS
 62
     7
 10
101.9172171275
 20
34.2366556225
 30
0.0
 40
1.25
  0
CIRCLE
  5
CF
  8
0
  6
CONTINUOUS
 62
     7
 10
101.9172171275
 20
19.2366556225
 30
0.0
 40
1.25
  0
CIRCLE
  5
D0
  8
0
  6
CONTINUOUS
 62
     7
 10
236.9172171275
 20
34.7366556225
 30
0.0
 40
2.450000000000017
  0
CIRCLE
  5
D1
  8
0
  6
CONTINUOUS
 62
     7
 10
231.9172171275
 20
29.7366556225
 30
0.0
 40
1.25
  0
CIRCLE
  5
D2
  8
0
  6
CONTINUOUS
 62
     7
 10
191.9172171275
 20
34.2366556225
 30
0.0
 40
1.25
  0
ENDSEC
  0
EOF
